ISO-10303-21;
HEADER;
FILE_DESCRIPTION(('STEP AP203'),
    '1');
FILE_NAME('AL-L5050.50',
    '',
    ('UNSPECIFIED'),
    ('UNSPECIFIED'),
    'ASCON STEP Converter 1.6',
    'ASCON Math Kernel',
    '');
FILE_SCHEMA(('CONFIG_CONTROL_DESIGN'));
ENDSEC;

DATA;
#1=SHAPE_REPRESENTATION('NONE',(#2),#6);
#2=AXIS2_PLACEMENT_3D('',#3,#4,#5);
#3=CARTESIAN_POINT('',(0.,0.,0.));
#4=DIRECTION('',(0.,0.,1.));
#5=DIRECTION('',(1.,0.,0.));
#6=(GEOMETRIC_REPRESENTATION_CONTEXT(3)GLOBAL_UNCERTAINTY_ASSIGNED_CONTEXT((#8))
GLOBAL_UNIT_ASSIGNED_CONTEXT((#7,#9,#10))REPRESENTATION_CONTEXT('NONE','NONE'));
#7=(LENGTH_UNIT()NAMED_UNIT(*)SI_UNIT(.MILLI.,.METRE.));
#8=UNCERTAINTY_MEASURE_WITH_UNIT(LENGTH_MEASURE(1.E-005),#7,'NONE','NONE');
#9=(NAMED_UNIT(*)PLANE_ANGLE_UNIT()SI_UNIT($,.RADIAN.));
#10=(NAMED_UNIT(*)SI_UNIT($,.STERADIAN.)SOLID_ANGLE_UNIT());
#11=SHAPE_DEFINITION_REPRESENTATION(#12,#1);
#12=PRODUCT_DEFINITION_SHAPE('NONE','NONE',#13);
#13=PRODUCT_DEFINITION('','UNSPECIFIED',#14,#17);
#14=PRODUCT_DEFINITION_FORMATION_WITH_SPECIFIED_SOURCE('ANY','UNSPECIFIED',#15,.NOT_KNOWN.);
#15=PRODUCT('AL-L5050.50','Óãîëîê ñòàëüíîé 50õ50L','NONE',(#20));
#16=PRODUCT_RELATED_PRODUCT_CATEGORY('detail','',(#15));
#17=DESIGN_CONTEXT('detailed design',#18,'design');
#18=APPLICATION_CONTEXT('configuration controlled 3d designs of mechanical parts and assemblies');
#19=APPLICATION_PROTOCOL_DEFINITION('international standard','config_control_design',
1994,#18);
#20=MECHANICAL_CONTEXT('NONE',#18,'mechanical');
#21=CC_DESIGN_DATE_AND_TIME_ASSIGNMENT(#22,#26,(#13));
#22=DATE_AND_TIME(#23,#24);
#23=CALENDAR_DATE(0,1,1);
#24=LOCAL_TIME(0,0,0.,#25);
#25=COORDINATED_UNIVERSAL_TIME_OFFSET(0,0,.AHEAD.);
#26=DATE_TIME_ROLE('creation_date');
#27=CC_DESIGN_APPROVAL(#28,(#13));
#28=APPROVAL(#29,'UNSPECIFIED');
#29=APPROVAL_STATUS('not_yet_approved');
#30=APPROVAL_DATE_TIME(#31,#28);
#31=DATE_AND_TIME(#32,#33);
#32=CALENDAR_DATE(0,1,1);
#33=LOCAL_TIME(0,0,0.,#34);
#34=COORDINATED_UNIVERSAL_TIME_OFFSET(0,0,.AHEAD.);
#35=MANIFOLD_SOLID_BREP('',#36);
#36=CLOSED_SHELL('',(#48,#57,#66,#75,#84,#93,#102,#111,#120,#129,#138,#147,#156,
#165,#174,#183,#192,#201));
#37=COLOUR_RGB('',0.564705882352941,0.564705882352941,0.564705882352941);
#38=FILL_AREA_STYLE_COLOUR('',#37);
#39=FILL_AREA_STYLE($,(#38));
#40=SURFACE_STYLE_FILL_AREA(#39);
#41=SURFACE_SIDE_STYLE('',(#40));
#42=SURFACE_STYLE_USAGE(.BOTH.,#41);
#43=PRESENTATION_STYLE_ASSIGNMENT((#42));
#44=MECHANICAL_DESIGN_GEOMETRIC_PRESENTATION_REPRESENTATION('NONE',(#45,#56,#65,
#74,#83,#92,#101,#110,#119,#128,#137,#146,#155,#164,#173,#182,#191,#200,#209),#6);
#45=STYLED_ITEM('',(#43),#35);
#46=ADVANCED_BREP_SHAPE_REPRESENTATION('NONE',(#35),#6);
#47=SHAPE_REPRESENTATION_RELATIONSHIP('','',#1,#46);
#48=ADVANCED_FACE('',(#210,#212),#214,.T.);
#49=COLOUR_RGB('',0.698039215686274,0.698039215686274,0.698039215686274);
#50=FILL_AREA_STYLE_COLOUR('',#49);
#51=FILL_AREA_STYLE($,(#50));
#52=SURFACE_STYLE_FILL_AREA(#51);
#53=SURFACE_SIDE_STYLE('',(#52));
#54=SURFACE_STYLE_USAGE(.BOTH.,#53);
#55=PRESENTATION_STYLE_ASSIGNMENT((#54));
#56=STYLED_ITEM('',(#55),#48);
#57=ADVANCED_FACE('',(#219,#221),#223,.F.);
#58=COLOUR_RGB('',0.698039215686274,0.698039215686274,0.698039215686274);
#59=FILL_AREA_STYLE_COLOUR('',#58);
#60=FILL_AREA_STYLE($,(#59));
#61=SURFACE_STYLE_FILL_AREA(#60);
#62=SURFACE_SIDE_STYLE('',(#61));
#63=SURFACE_STYLE_USAGE(.BOTH.,#62);
#64=PRESENTATION_STYLE_ASSIGNMENT((#63));
#65=STYLED_ITEM('',(#64),#57);
#66=ADVANCED_FACE('',(#228,#230),#232,.F.);
#67=COLOUR_RGB('',0.698039215686274,0.698039215686274,0.698039215686274);
#68=FILL_AREA_STYLE_COLOUR('',#67);
#69=FILL_AREA_STYLE($,(#68));
#70=SURFACE_STYLE_FILL_AREA(#69);
#71=SURFACE_SIDE_STYLE('',(#70));
#72=SURFACE_STYLE_USAGE(.BOTH.,#71);
#73=PRESENTATION_STYLE_ASSIGNMENT((#72));
#74=STYLED_ITEM('',(#73),#66);
#75=ADVANCED_FACE('',(#237),#239,.T.);
#76=COLOUR_RGB('',0.698039215686274,0.698039215686274,0.698039215686274);
#77=FILL_AREA_STYLE_COLOUR('',#76);
#78=FILL_AREA_STYLE($,(#77));
#79=SURFACE_STYLE_FILL_AREA(#78);
#80=SURFACE_SIDE_STYLE('',(#79));
#81=SURFACE_STYLE_USAGE(.BOTH.,#80);
#82=PRESENTATION_STYLE_ASSIGNMENT((#81));
#83=STYLED_ITEM('',(#82),#75);
#84=ADVANCED_FACE('',(#244),#246,.T.);
#85=COLOUR_RGB('',0.698039215686274,0.698039215686274,0.698039215686274);
#86=FILL_AREA_STYLE_COLOUR('',#85);
#87=FILL_AREA_STYLE($,(#86));
#88=SURFACE_STYLE_FILL_AREA(#87);
#89=SURFACE_SIDE_STYLE('',(#88));
#90=SURFACE_STYLE_USAGE(.BOTH.,#89);
#91=PRESENTATION_STYLE_ASSIGNMENT((#90));
#92=STYLED_ITEM('',(#91),#84);
#93=ADVANCED_FACE('',(#251),#253,.T.);
#94=COLOUR_RGB('',0.698039215686274,0.698039215686274,0.698039215686274);
#95=FILL_AREA_STYLE_COLOUR('',#94);
#96=FILL_AREA_STYLE($,(#95));
#97=SURFACE_STYLE_FILL_AREA(#96);
#98=SURFACE_SIDE_STYLE('',(#97));
#99=SURFACE_STYLE_USAGE(.BOTH.,#98);
#100=PRESENTATION_STYLE_ASSIGNMENT((#99));
#101=STYLED_ITEM('',(#100),#93);
#102=ADVANCED_FACE('',(#258),#260,.T.);
#103=COLOUR_RGB('',0.698039215686274,0.698039215686274,0.698039215686274);
#104=FILL_AREA_STYLE_COLOUR('',#103);
#105=FILL_AREA_STYLE($,(#104));
#106=SURFACE_STYLE_FILL_AREA(#105);
#107=SURFACE_SIDE_STYLE('',(#106));
#108=SURFACE_STYLE_USAGE(.BOTH.,#107);
#109=PRESENTATION_STYLE_ASSIGNMENT((#108));
#110=STYLED_ITEM('',(#109),#102);
#111=ADVANCED_FACE('',(#265),#267,.F.);
#112=COLOUR_RGB('',0.698039215686274,0.698039215686274,0.698039215686274);
#113=FILL_AREA_STYLE_COLOUR('',#112);
#114=FILL_AREA_STYLE($,(#113));
#115=SURFACE_STYLE_FILL_AREA(#114);
#116=SURFACE_SIDE_STYLE('',(#115));
#117=SURFACE_STYLE_USAGE(.BOTH.,#116);
#118=PRESENTATION_STYLE_ASSIGNMENT((#117));
#119=STYLED_ITEM('',(#118),#111);
#120=ADVANCED_FACE('',(#272),#274,.F.);
#121=COLOUR_RGB('',0.698039215686274,0.698039215686274,0.698039215686274);
#122=FILL_AREA_STYLE_COLOUR('',#121);
#123=FILL_AREA_STYLE($,(#122));
#124=SURFACE_STYLE_FILL_AREA(#123);
#125=SURFACE_SIDE_STYLE('',(#124));
#126=SURFACE_STYLE_USAGE(.BOTH.,#125);
#127=PRESENTATION_STYLE_ASSIGNMENT((#126));
#128=STYLED_ITEM('',(#127),#120);
#129=ADVANCED_FACE('',(#279),#281,.T.);
#130=COLOUR_RGB('',0.698039215686274,0.698039215686274,0.698039215686274);
#131=FILL_AREA_STYLE_COLOUR('',#130);
#132=FILL_AREA_STYLE($,(#131));
#133=SURFACE_STYLE_FILL_AREA(#132);
#134=SURFACE_SIDE_STYLE('',(#133));
#135=SURFACE_STYLE_USAGE(.BOTH.,#134);
#136=PRESENTATION_STYLE_ASSIGNMENT((#135));
#137=STYLED_ITEM('',(#136),#129);
#138=ADVANCED_FACE('',(#286),#288,.T.);
#139=COLOUR_RGB('',0.698039215686274,0.698039215686274,0.698039215686274);
#140=FILL_AREA_STYLE_COLOUR('',#139);
#141=FILL_AREA_STYLE($,(#140));
#142=SURFACE_STYLE_FILL_AREA(#141);
#143=SURFACE_SIDE_STYLE('',(#142));
#144=SURFACE_STYLE_USAGE(.BOTH.,#143);
#145=PRESENTATION_STYLE_ASSIGNMENT((#144));
#146=STYLED_ITEM('',(#145),#138);
#147=ADVANCED_FACE('',(#293,#295),#297,.T.);
#148=COLOUR_RGB('',0.698039215686274,0.698039215686274,0.698039215686274);
#149=FILL_AREA_STYLE_COLOUR('',#148);
#150=FILL_AREA_STYLE($,(#149));
#151=SURFACE_STYLE_FILL_AREA(#150);
#152=SURFACE_SIDE_STYLE('',(#151));
#153=SURFACE_STYLE_USAGE(.BOTH.,#152);
#154=PRESENTATION_STYLE_ASSIGNMENT((#153));
#155=STYLED_ITEM('',(#154),#147);
#156=ADVANCED_FACE('',(#302),#304,.T.);
#157=COLOUR_RGB('',0.698039215686274,0.698039215686274,0.698039215686274);
#158=FILL_AREA_STYLE_COLOUR('',#157);
#159=FILL_AREA_STYLE($,(#158));
#160=SURFACE_STYLE_FILL_AREA(#159);
#161=SURFACE_SIDE_STYLE('',(#160));
#162=SURFACE_STYLE_USAGE(.BOTH.,#161);
#163=PRESENTATION_STYLE_ASSIGNMENT((#162));
#164=STYLED_ITEM('',(#163),#156);
#165=ADVANCED_FACE('',(#309,#311),#313,.F.);
#166=COLOUR_RGB('',0.698039215686274,0.698039215686274,0.698039215686274);
#167=FILL_AREA_STYLE_COLOUR('',#166);
#168=FILL_AREA_STYLE($,(#167));
#169=SURFACE_STYLE_FILL_AREA(#168);
#170=SURFACE_SIDE_STYLE('',(#169));
#171=SURFACE_STYLE_USAGE(.BOTH.,#170);
#172=PRESENTATION_STYLE_ASSIGNMENT((#171));
#173=STYLED_ITEM('',(#172),#165);
#174=ADVANCED_FACE('',(#318),#320,.T.);
#175=COLOUR_RGB('',0.698039215686274,0.698039215686274,0.698039215686274);
#176=FILL_AREA_STYLE_COLOUR('',#175);
#177=FILL_AREA_STYLE($,(#176));
#178=SURFACE_STYLE_FILL_AREA(#177);
#179=SURFACE_SIDE_STYLE('',(#178));
#180=SURFACE_STYLE_USAGE(.BOTH.,#179);
#181=PRESENTATION_STYLE_ASSIGNMENT((#180));
#182=STYLED_ITEM('',(#181),#174);
#183=ADVANCED_FACE('',(#325),#327,.T.);
#184=COLOUR_RGB('',0.698039215686274,0.698039215686274,0.698039215686274);
#185=FILL_AREA_STYLE_COLOUR('',#184);
#186=FILL_AREA_STYLE($,(#185));
#187=SURFACE_STYLE_FILL_AREA(#186);
#188=SURFACE_SIDE_STYLE('',(#187));
#189=SURFACE_STYLE_USAGE(.BOTH.,#188);
#190=PRESENTATION_STYLE_ASSIGNMENT((#189));
#191=STYLED_ITEM('',(#190),#183);
#192=ADVANCED_FACE('',(#332),#334,.T.);
#193=COLOUR_RGB('',0.698039215686274,0.698039215686274,0.698039215686274);
#194=FILL_AREA_STYLE_COLOUR('',#193);
#195=FILL_AREA_STYLE($,(#194));
#196=SURFACE_STYLE_FILL_AREA(#195);
#197=SURFACE_SIDE_STYLE('',(#196));
#198=SURFACE_STYLE_USAGE(.BOTH.,#197);
#199=PRESENTATION_STYLE_ASSIGNMENT((#198));
#200=STYLED_ITEM('',(#199),#192);
#201=ADVANCED_FACE('',(#339,#341),#343,.F.);
#202=COLOUR_RGB('',0.698039215686274,0.698039215686274,0.698039215686274);
#203=FILL_AREA_STYLE_COLOUR('',#202);
#204=FILL_AREA_STYLE($,(#203));
#205=SURFACE_STYLE_FILL_AREA(#204);
#206=SURFACE_SIDE_STYLE('',(#205));
#207=SURFACE_STYLE_USAGE(.BOTH.,#206);
#208=PRESENTATION_STYLE_ASSIGNMENT((#207));
#209=STYLED_ITEM('',(#208),#201);
#210=FACE_BOUND('',#211,.T.);
#211=EDGE_LOOP('',(#348,#349,#350,#351,#352,#353));
#212=FACE_BOUND('',#213,.T.);
#213=EDGE_LOOP('',(#354));
#214=PLANE('',#215);
#215=AXIS2_PLACEMENT_3D('',#216,#217,#218);
#216=CARTESIAN_POINT('',(48.,0.,-5.));
#217=DIRECTION('',(-0.,0.,-1.));
#218=DIRECTION('',(-1.,0.,0.));
#219=FACE_BOUND('',#220,.T.);
#220=EDGE_LOOP('',(#355,#356,#357,#358,#359,#360));
#221=FACE_BOUND('',#222,.T.);
#222=EDGE_LOOP('',(#361));
#223=PLANE('',#224);
#224=AXIS2_PLACEMENT_3D('',#225,#226,#227);
#225=CARTESIAN_POINT('',(48.,0.,0.));
#226=DIRECTION('',(0.,0.,-1.));
#227=DIRECTION('',(-1.,0.,0.));
#228=FACE_OUTER_BOUND('',#229,.T.);
#229=EDGE_LOOP('',(#362));
#230=FACE_OUTER_BOUND('',#231,.T.);
#231=EDGE_LOOP('',(#363));
#232=CYLINDRICAL_SURFACE('',#233,4.5);
#233=AXIS2_PLACEMENT_3D('',#234,#235,#236);
#234=CARTESIAN_POINT('',(25.,25.,-6.));
#235=DIRECTION('',(0.,0.,1.));
#236=DIRECTION('',(6.12323399573677E-017,-1.,0.));
#237=FACE_BOUND('',#238,.T.);
#238=EDGE_LOOP('',(#364,#365,#366,#367));
#239=CYLINDRICAL_SURFACE('',#240,5.);
#240=AXIS2_PLACEMENT_3D('',#241,#242,#243);
#241=CARTESIAN_POINT('',(7.,41.,20.));
#242=DIRECTION('',(0.,0.,-1.));
#243=DIRECTION('',(-1.,0.,0.));
#244=FACE_BOUND('',#245,.T.);
#245=EDGE_LOOP('',(#368,#369,#370,#371));
#246=PLANE('',#247);
#247=AXIS2_PLACEMENT_3D('',#248,#249,#250);
#248=CARTESIAN_POINT('',(48.,46.,0.));
#249=DIRECTION('',(-0.,1.,0.));
#250=DIRECTION('',(0.,-0.,1.));
#251=FACE_BOUND('',#252,.T.);
#252=EDGE_LOOP('',(#372,#373,#374,#375));
#253=CYLINDRICAL_SURFACE('',#254,5.);
#254=AXIS2_PLACEMENT_3D('',#255,#256,#257);
#255=CARTESIAN_POINT('',(43.,41.,0.));
#256=DIRECTION('',(0.,0.,-1.));
#257=DIRECTION('',(-1.,0.,0.));
#258=FACE_BOUND('',#259,.T.);
#259=EDGE_LOOP('',(#376,#377,#378,#379));
#260=PLANE('',#261);
#261=AXIS2_PLACEMENT_3D('',#262,#263,#264);
#262=CARTESIAN_POINT('',(48.,5.,-9.));
#263=DIRECTION('',(1.,0.,0.));
#264=DIRECTION('',(0.,0.,-1.));
#265=FACE_BOUND('',#266,.T.);
#266=EDGE_LOOP('',(#380,#381,#382,#383));
#267=CYLINDRICAL_SURFACE('',#268,4.);
#268=AXIS2_PLACEMENT_3D('',#269,#270,#271);
#269=CARTESIAN_POINT('',(48.,9.,-9.));
#270=DIRECTION('',(-1.,-0.,-0.));
#271=DIRECTION('',(0.,0.,1.));
#272=FACE_BOUND('',#273,.T.);
#273=EDGE_LOOP('',(#384,#385,#386,#387,#388,#389,#390,#391));
#274=PLANE('',#275);
#275=AXIS2_PLACEMENT_3D('',#276,#277,#278);
#276=CARTESIAN_POINT('',(2.,-6.,-65.));
#277=DIRECTION('',(1.,-1.53134210293125E-016,0.));
#278=DIRECTION('',(1.53134210293125E-016,1.,0.));
#279=FACE_BOUND('',#280,.T.);
#280=EDGE_LOOP('',(#392,#393,#394,#395));
#281=CYLINDRICAL_SURFACE('',#282,9.);
#282=AXIS2_PLACEMENT_3D('',#283,#284,#285);
#283=CARTESIAN_POINT('',(48.,9.,-9.));
#284=DIRECTION('',(-1.,-0.,-0.));
#285=DIRECTION('',(0.,0.,1.));
#286=FACE_BOUND('',#287,.T.);
#287=EDGE_LOOP('',(#396,#397,#398,#399));
#288=PLANE('',#289);
#289=AXIS2_PLACEMENT_3D('',#290,#291,#292);
#290=CARTESIAN_POINT('',(48.,9.,0.));
#291=DIRECTION('',(1.,0.,0.));
#292=DIRECTION('',(0.,0.,-1.));
#293=FACE_BOUND('',#294,.T.);
#294=EDGE_LOOP('',(#400,#401,#402,#403,#404,#405));
#295=FACE_BOUND('',#296,.T.);
#296=EDGE_LOOP('',(#406));
#297=PLANE('',#298);
#298=AXIS2_PLACEMENT_3D('',#299,#300,#301);
#299=CARTESIAN_POINT('',(48.,5.,0.));
#300=DIRECTION('',(-0.,1.,0.));
#301=DIRECTION('',(0.,-0.,1.));
#302=FACE_BOUND('',#303,.T.);
#303=EDGE_LOOP('',(#407,#408,#409,#410));
#304=CYLINDRICAL_SURFACE('',#305,5.);
#305=AXIS2_PLACEMENT_3D('',#306,#307,#308);
#306=CARTESIAN_POINT('',(7.,25.,-41.));
#307=DIRECTION('',(-7.89491928622334E-017,-1.,0.));
#308=DIRECTION('',(-1.,7.89491928622334E-017,0.));
#309=FACE_BOUND('',#310,.T.);
#310=EDGE_LOOP('',(#411,#412,#413,#414,#415,#416));
#311=FACE_BOUND('',#312,.T.);
#312=EDGE_LOOP('',(#417));
#313=PLANE('',#314);
#314=AXIS2_PLACEMENT_3D('',#315,#316,#317);
#315=CARTESIAN_POINT('',(48.,0.,0.));
#316=DIRECTION('',(-0.,1.,0.));
#317=DIRECTION('',(0.,-0.,1.));
#318=FACE_BOUND('',#319,.T.);
#319=EDGE_LOOP('',(#418,#419,#420,#421));
#320=PLANE('',#321);
#321=AXIS2_PLACEMENT_3D('',#322,#323,#324);
#322=CARTESIAN_POINT('',(48.,9.,-9.));
#323=DIRECTION('',(1.,0.,0.));
#324=DIRECTION('',(0.,0.,-1.));
#325=FACE_BOUND('',#326,.T.);
#326=EDGE_LOOP('',(#422,#423,#424,#425));
#327=CYLINDRICAL_SURFACE('',#328,5.);
#328=AXIS2_PLACEMENT_3D('',#329,#330,#331);
#329=CARTESIAN_POINT('',(43.,5.,-41.));
#330=DIRECTION('',(0.,-1.,0.));
#331=DIRECTION('',(0.,0.,-1.));
#332=FACE_BOUND('',#333,.T.);
#333=EDGE_LOOP('',(#426,#427,#428,#429));
#334=PLANE('',#335);
#335=AXIS2_PLACEMENT_3D('',#336,#337,#338);
#336=CARTESIAN_POINT('',(48.,5.,-46.));
#337=DIRECTION('',(0.,0.,-1.));
#338=DIRECTION('',(-1.,0.,0.));
#339=FACE_OUTER_BOUND('',#340,.T.);
#340=EDGE_LOOP('',(#430));
#341=FACE_OUTER_BOUND('',#342,.T.);
#342=EDGE_LOOP('',(#431));
#343=CYLINDRICAL_SURFACE('',#344,4.5);
#344=AXIS2_PLACEMENT_3D('',#345,#346,#347);
#345=CARTESIAN_POINT('',(25.,6.,-25.));
#346=DIRECTION('',(0.,-1.,0.));
#347=DIRECTION('',(-1.,0.,1.22464679914735E-016));
#348=ORIENTED_EDGE('',*,*,#432,.F.);
#349=ORIENTED_EDGE('',*,*,#433,.F.);
#350=ORIENTED_EDGE('',*,*,#434,.T.);
#351=ORIENTED_EDGE('',*,*,#435,.T.);
#352=ORIENTED_EDGE('',*,*,#436,.T.);
#353=ORIENTED_EDGE('',*,*,#437,.T.);
#354=ORIENTED_EDGE('',*,*,#438,.T.);
#355=ORIENTED_EDGE('',*,*,#439,.F.);
#356=ORIENTED_EDGE('',*,*,#440,.T.);
#357=ORIENTED_EDGE('',*,*,#441,.F.);
#358=ORIENTED_EDGE('',*,*,#442,.F.);
#359=ORIENTED_EDGE('',*,*,#443,.T.);
#360=ORIENTED_EDGE('',*,*,#444,.T.);
#361=ORIENTED_EDGE('',*,*,#445,.T.);
#362=ORIENTED_EDGE('',*,*,#445,.F.);
#363=ORIENTED_EDGE('',*,*,#438,.F.);
#364=ORIENTED_EDGE('',*,*,#446,.F.);
#365=ORIENTED_EDGE('',*,*,#432,.T.);
#366=ORIENTED_EDGE('',*,*,#447,.T.);
#367=ORIENTED_EDGE('',*,*,#439,.T.);
#368=ORIENTED_EDGE('',*,*,#446,.T.);
#369=ORIENTED_EDGE('',*,*,#444,.F.);
#370=ORIENTED_EDGE('',*,*,#448,.T.);
#371=ORIENTED_EDGE('',*,*,#433,.T.);
#372=ORIENTED_EDGE('',*,*,#443,.F.);
#373=ORIENTED_EDGE('',*,*,#449,.F.);
#374=ORIENTED_EDGE('',*,*,#434,.F.);
#375=ORIENTED_EDGE('',*,*,#448,.F.);
#376=ORIENTED_EDGE('',*,*,#435,.F.);
#377=ORIENTED_EDGE('',*,*,#449,.T.);
#378=ORIENTED_EDGE('',*,*,#442,.T.);
#379=ORIENTED_EDGE('',*,*,#450,.T.);
#380=ORIENTED_EDGE('',*,*,#451,.T.);
#381=ORIENTED_EDGE('',*,*,#436,.F.);
#382=ORIENTED_EDGE('',*,*,#452,.T.);
#383=ORIENTED_EDGE('',*,*,#453,.T.);
#384=ORIENTED_EDGE('',*,*,#454,.F.);
#385=ORIENTED_EDGE('',*,*,#455,.F.);
#386=ORIENTED_EDGE('',*,*,#456,.F.);
#387=ORIENTED_EDGE('',*,*,#440,.F.);
#388=ORIENTED_EDGE('',*,*,#447,.F.);
#389=ORIENTED_EDGE('',*,*,#437,.F.);
#390=ORIENTED_EDGE('',*,*,#451,.F.);
#391=ORIENTED_EDGE('',*,*,#457,.F.);
#392=ORIENTED_EDGE('',*,*,#456,.T.);
#393=ORIENTED_EDGE('',*,*,#458,.F.);
#394=ORIENTED_EDGE('',*,*,#459,.F.);
#395=ORIENTED_EDGE('',*,*,#441,.T.);
#396=ORIENTED_EDGE('',*,*,#450,.F.);
#397=ORIENTED_EDGE('',*,*,#459,.T.);
#398=ORIENTED_EDGE('',*,*,#460,.F.);
#399=ORIENTED_EDGE('',*,*,#452,.F.);
#400=ORIENTED_EDGE('',*,*,#461,.F.);
#401=ORIENTED_EDGE('',*,*,#457,.T.);
#402=ORIENTED_EDGE('',*,*,#453,.F.);
#403=ORIENTED_EDGE('',*,*,#462,.T.);
#404=ORIENTED_EDGE('',*,*,#463,.T.);
#405=ORIENTED_EDGE('',*,*,#464,.T.);
#406=ORIENTED_EDGE('',*,*,#465,.T.);
#407=ORIENTED_EDGE('',*,*,#466,.F.);
#408=ORIENTED_EDGE('',*,*,#467,.T.);
#409=ORIENTED_EDGE('',*,*,#454,.T.);
#410=ORIENTED_EDGE('',*,*,#461,.T.);
#411=ORIENTED_EDGE('',*,*,#467,.F.);
#412=ORIENTED_EDGE('',*,*,#468,.F.);
#413=ORIENTED_EDGE('',*,*,#469,.T.);
#414=ORIENTED_EDGE('',*,*,#470,.F.);
#415=ORIENTED_EDGE('',*,*,#458,.T.);
#416=ORIENTED_EDGE('',*,*,#455,.T.);
#417=ORIENTED_EDGE('',*,*,#471,.T.);
#418=ORIENTED_EDGE('',*,*,#470,.T.);
#419=ORIENTED_EDGE('',*,*,#472,.T.);
#420=ORIENTED_EDGE('',*,*,#462,.F.);
#421=ORIENTED_EDGE('',*,*,#460,.T.);
#422=ORIENTED_EDGE('',*,*,#463,.F.);
#423=ORIENTED_EDGE('',*,*,#472,.F.);
#424=ORIENTED_EDGE('',*,*,#469,.F.);
#425=ORIENTED_EDGE('',*,*,#473,.F.);
#426=ORIENTED_EDGE('',*,*,#466,.T.);
#427=ORIENTED_EDGE('',*,*,#464,.F.);
#428=ORIENTED_EDGE('',*,*,#473,.T.);
#429=ORIENTED_EDGE('',*,*,#468,.T.);
#430=ORIENTED_EDGE('',*,*,#465,.F.);
#431=ORIENTED_EDGE('',*,*,#471,.F.);
#432=EDGE_CURVE('',#474,#475,#476,.F.);
#433=EDGE_CURVE('',#477,#474,#478,.T.);
#434=EDGE_CURVE('',#477,#479,#480,.T.);
#435=EDGE_CURVE('',#479,#481,#482,.T.);
#436=EDGE_CURVE('',#481,#483,#484,.T.);
#437=EDGE_CURVE('',#483,#475,#485,.F.);
#438=EDGE_CURVE('',#486,#486,#487,.T.);
#439=EDGE_CURVE('',#488,#489,#490,.F.);
#440=EDGE_CURVE('',#488,#491,#492,.T.);
#441=EDGE_CURVE('',#493,#491,#494,.T.);
#442=EDGE_CURVE('',#495,#493,#496,.T.);
#443=EDGE_CURVE('',#495,#497,#498,.T.);
#444=EDGE_CURVE('',#497,#489,#499,.T.);
#445=EDGE_CURVE('',#500,#500,#501,.F.);
#446=EDGE_CURVE('',#474,#489,#502,.F.);
#447=EDGE_CURVE('',#475,#488,#503,.F.);
#448=EDGE_CURVE('',#497,#477,#504,.T.);
#449=EDGE_CURVE('',#479,#495,#505,.T.);
#450=EDGE_CURVE('',#493,#481,#506,.T.);
#451=EDGE_CURVE('',#507,#483,#508,.T.);
#452=EDGE_CURVE('',#481,#509,#510,.T.);
#453=EDGE_CURVE('',#509,#507,#511,.T.);
#454=EDGE_CURVE('',#512,#513,#514,.F.);
#455=EDGE_CURVE('',#515,#512,#516,.T.);
#456=EDGE_CURVE('',#491,#515,#517,.F.);
#457=EDGE_CURVE('',#513,#507,#518,.F.);
#458=EDGE_CURVE('',#519,#515,#520,.T.);
#459=EDGE_CURVE('',#493,#519,#521,.T.);
#460=EDGE_CURVE('',#509,#519,#522,.T.);
#461=EDGE_CURVE('',#513,#523,#524,.F.);
#462=EDGE_CURVE('',#509,#525,#526,.T.);
#463=EDGE_CURVE('',#525,#527,#528,.T.);
#464=EDGE_CURVE('',#527,#523,#529,.T.);
#465=EDGE_CURVE('',#530,#530,#531,.T.);
#466=EDGE_CURVE('',#532,#523,#533,.F.);
#467=EDGE_CURVE('',#532,#512,#534,.F.);
#468=EDGE_CURVE('',#535,#532,#536,.T.);
#469=EDGE_CURVE('',#535,#537,#538,.T.);
#470=EDGE_CURVE('',#519,#537,#539,.T.);
#471=EDGE_CURVE('',#540,#540,#541,.F.);
#472=EDGE_CURVE('',#537,#525,#542,.T.);
#473=EDGE_CURVE('',#527,#535,#543,.T.);
#474=VERTEX_POINT('',#544);
#475=VERTEX_POINT('',#545);
#476=CIRCLE('',#546,5.);
#477=VERTEX_POINT('',#550);
#478=LINE('',#551,#552);
#479=VERTEX_POINT('',#554);
#480=CIRCLE('',#555,5.);
#481=VERTEX_POINT('',#559);
#482=LINE('',#560,#561);
#483=VERTEX_POINT('',#563);
#484=LINE('',#564,#565);
#485=LINE('',#567,#568);
#486=VERTEX_POINT('',#570);
#487=CIRCLE('',#571,4.5);
#488=VERTEX_POINT('',#575);
#489=VERTEX_POINT('',#576);
#490=CIRCLE('',#577,5.);
#491=VERTEX_POINT('',#581);
#492=LINE('',#582,#583);
#493=VERTEX_POINT('',#585);
#494=LINE('',#586,#587);
#495=VERTEX_POINT('',#589);
#496=LINE('',#590,#591);
#497=VERTEX_POINT('',#593);
#498=CIRCLE('',#594,5.);
#499=LINE('',#598,#599);
#500=VERTEX_POINT('',#601);
#501=CIRCLE('',#602,4.5);
#502=LINE('',#606,#607);
#503=LINE('',#609,#610);
#504=LINE('',#612,#613);
#505=LINE('',#615,#616);
#506=LINE('',#618,#619);
#507=VERTEX_POINT('',#621);
#508=CIRCLE('',#622,4.);
#509=VERTEX_POINT('',#626);
#510=CIRCLE('',#627,4.);
#511=LINE('',#631,#632);
#512=VERTEX_POINT('',#634);
#513=VERTEX_POINT('',#635);
#514=LINE('',#636,#637);
#515=VERTEX_POINT('',#639);
#516=LINE('',#640,#641);
#517=CIRCLE('',#643,9.);
#518=LINE('',#647,#648);
#519=VERTEX_POINT('',#650);
#520=LINE('',#651,#652);
#521=CIRCLE('',#654,9.);
#522=LINE('',#658,#659);
#523=VERTEX_POINT('',#661);
#524=CIRCLE('',#662,5.);
#525=VERTEX_POINT('',#666);
#526=LINE('',#667,#668);
#527=VERTEX_POINT('',#670);
#528=CIRCLE('',#671,5.);
#529=LINE('',#675,#676);
#530=VERTEX_POINT('',#678);
#531=CIRCLE('',#679,4.5);
#532=VERTEX_POINT('',#683);
#533=LINE('',#684,#685);
#534=CIRCLE('',#687,5.);
#535=VERTEX_POINT('',#691);
#536=LINE('',#692,#693);
#537=VERTEX_POINT('',#695);
#538=CIRCLE('',#696,5.);
#539=LINE('',#700,#701);
#540=VERTEX_POINT('',#703);
#541=CIRCLE('',#704,4.5);
#542=LINE('',#708,#709);
#543=LINE('',#711,#712);
#544=CARTESIAN_POINT('',(7.,46.,-5.));
#545=CARTESIAN_POINT('',(2.,41.,-5.));
#546=AXIS2_PLACEMENT_3D('',#547,#548,#549);
#547=CARTESIAN_POINT('',(7.,41.,-5.));
#548=DIRECTION('',(0.,0.,-1.));
#549=DIRECTION('',(-1.,0.,0.));
#550=CARTESIAN_POINT('',(43.,46.,-5.));
#551=CARTESIAN_POINT('',(43.,46.,-5.));
#552=VECTOR('',#553,1.);
#553=DIRECTION('',(-1.,0.,0.));
#554=CARTESIAN_POINT('',(48.,41.,-5.));
#555=AXIS2_PLACEMENT_3D('',#556,#557,#558);
#556=CARTESIAN_POINT('',(43.,41.,-5.));
#557=DIRECTION('',(0.,0.,-1.));
#558=DIRECTION('',(0.,1.,0.));
#559=CARTESIAN_POINT('',(48.,9.,-5.));
#560=CARTESIAN_POINT('',(48.,41.,-5.));
#561=VECTOR('',#562,1.);
#562=DIRECTION('',(-2.22044604925031E-016,-1.,0.));
#563=CARTESIAN_POINT('',(2.,9.,-5.));
#564=CARTESIAN_POINT('',(48.,9.,-5.));
#565=VECTOR('',#566,1.);
#566=DIRECTION('',(-1.,-3.86164530304402E-017,0.));
#567=CARTESIAN_POINT('',(2.,41.,-5.));
#568=VECTOR('',#569,1.);
#569=DIRECTION('',(0.,-1.,0.));
#570=CARTESIAN_POINT('',(25.,20.5,-5.));
#571=AXIS2_PLACEMENT_3D('',#572,#573,#574);
#572=CARTESIAN_POINT('',(25.,25.,-5.));
#573=DIRECTION('',(0.,-0.,1.));
#574=DIRECTION('',(6.12323399573677E-017,-1.,-0.));
#575=CARTESIAN_POINT('',(2.,41.,0.));
#576=CARTESIAN_POINT('',(7.,46.,-2.96059473233375E-016));
#577=AXIS2_PLACEMENT_3D('',#578,#579,#580);
#578=CARTESIAN_POINT('',(7.,41.,0.));
#579=DIRECTION('',(0.,0.,1.));
#580=DIRECTION('',(-1.4210854715202E-015,1.,0.));
#581=CARTESIAN_POINT('',(2.,9.,0.));
#582=CARTESIAN_POINT('',(2.,41.,0.));
#583=VECTOR('',#584,1.);
#584=DIRECTION('',(0.,-1.,0.));
#585=CARTESIAN_POINT('',(48.,9.,0.));
#586=CARTESIAN_POINT('',(48.,9.,0.));
#587=VECTOR('',#588,1.);
#588=DIRECTION('',(-1.,-3.86164530304402E-017,0.));
#589=CARTESIAN_POINT('',(48.,41.,0.));
#590=CARTESIAN_POINT('',(48.,41.,0.));
#591=VECTOR('',#592,1.);
#592=DIRECTION('',(0.,-1.,0.));
#593=CARTESIAN_POINT('',(43.,46.,0.));
#594=AXIS2_PLACEMENT_3D('',#595,#596,#597);
#595=CARTESIAN_POINT('',(43.,41.,0.));
#596=DIRECTION('',(0.,0.,1.));
#597=DIRECTION('',(1.,0.,0.));
#598=CARTESIAN_POINT('',(43.,46.,0.));
#599=VECTOR('',#600,1.);
#600=DIRECTION('',(-1.,0.,0.));
#601=CARTESIAN_POINT('',(25.,20.5,0.));
#602=AXIS2_PLACEMENT_3D('',#603,#604,#605);
#603=CARTESIAN_POINT('',(25.,25.,0.));
#604=DIRECTION('',(-0.,-0.,1.));
#605=DIRECTION('',(6.12323399573677E-017,-1.,-0.));
#606=CARTESIAN_POINT('',(7.,46.,-1.77635683940025E-015));
#607=VECTOR('',#608,1.);
#608=DIRECTION('',(0.,0.,-1.));
#609=CARTESIAN_POINT('',(2.00000000000001,41.,0.));
#610=VECTOR('',#611,1.);
#611=DIRECTION('',(0.,0.,-1.));
#612=CARTESIAN_POINT('',(43.,46.,0.));
#613=VECTOR('',#614,1.);
#614=DIRECTION('',(0.,0.,-1.));
#615=CARTESIAN_POINT('',(48.,41.,-5.));
#616=VECTOR('',#617,1.);
#617=DIRECTION('',(0.,0.,1.));
#618=CARTESIAN_POINT('',(48.,9.,0.));
#619=VECTOR('',#620,1.);
#620=DIRECTION('',(0.,0.,-1.));
#621=CARTESIAN_POINT('',(2.,5.,-9.));
#622=AXIS2_PLACEMENT_3D('',#623,#624,#625);
#623=CARTESIAN_POINT('',(2.,9.,-9.));
#624=DIRECTION('',(-1.,1.53134210293125E-016,0.));
#625=DIRECTION('',(-1.53134210293125E-016,-1.,0.));
#626=CARTESIAN_POINT('',(48.,5.,-9.));
#627=AXIS2_PLACEMENT_3D('',#628,#629,#630);
#628=CARTESIAN_POINT('',(48.,9.,-9.));
#629=DIRECTION('',(1.,0.,0.));
#630=DIRECTION('',(0.,0.,1.));
#631=CARTESIAN_POINT('',(48.,5.,-9.));
#632=VECTOR('',#633,1.);
#633=DIRECTION('',(-1.,0.,3.86164530304402E-017));
#634=CARTESIAN_POINT('',(2.,-5.9211894646675E-016,-41.));
#635=CARTESIAN_POINT('',(2.,5.,-41.));
#636=CARTESIAN_POINT('',(2.,5.,-41.));
#637=VECTOR('',#638,1.);
#638=DIRECTION('',(-1.77635683940025E-016,-1.,0.));
#639=CARTESIAN_POINT('',(2.,0.,-9.));
#640=CARTESIAN_POINT('',(2.,0.,-9.));
#641=VECTOR('',#642,1.);
#642=DIRECTION('',(0.,0.,-1.));
#643=AXIS2_PLACEMENT_3D('',#644,#645,#646);
#644=CARTESIAN_POINT('',(2.,9.,-9.));
#645=DIRECTION('',(-1.,1.53134210293125E-016,0.));
#646=DIRECTION('',(-1.53134210293125E-016,-1.,-1.97372982155583E-016));
#647=CARTESIAN_POINT('',(2.,5.,-9.));
#648=VECTOR('',#649,1.);
#649=DIRECTION('',(0.,0.,-1.));
#650=CARTESIAN_POINT('',(48.,0.,-9.));
#651=CARTESIAN_POINT('',(48.,0.,-9.));
#652=VECTOR('',#653,1.);
#653=DIRECTION('',(-1.,0.,3.86164530304402E-017));
#654=AXIS2_PLACEMENT_3D('',#655,#656,#657);
#655=CARTESIAN_POINT('',(48.,9.,-9.));
#656=DIRECTION('',(1.,0.,-0.));
#657=DIRECTION('',(0.,0.,1.));
#658=CARTESIAN_POINT('',(48.,5.,-9.));
#659=VECTOR('',#660,1.);
#660=DIRECTION('',(0.,-1.,0.));
#661=CARTESIAN_POINT('',(7.,5.,-46.));
#662=AXIS2_PLACEMENT_3D('',#663,#664,#665);
#663=CARTESIAN_POINT('',(7.,5.,-41.));
#664=DIRECTION('',(0.,1.,0.));
#665=DIRECTION('',(-1.24344978758018E-015,0.,-1.));
#666=CARTESIAN_POINT('',(48.,5.,-41.));
#667=CARTESIAN_POINT('',(48.,5.,-9.));
#668=VECTOR('',#669,1.);
#669=DIRECTION('',(0.,0.,-1.));
#670=CARTESIAN_POINT('',(43.,5.,-46.));
#671=AXIS2_PLACEMENT_3D('',#672,#673,#674);
#672=CARTESIAN_POINT('',(43.,5.,-41.));
#673=DIRECTION('',(-0.,1.,0.));
#674=DIRECTION('',(1.,0.,0.));
#675=CARTESIAN_POINT('',(43.,5.,-46.));
#676=VECTOR('',#677,1.);
#677=DIRECTION('',(-1.,0.,0.));
#678=CARTESIAN_POINT('',(20.5,5.,-25.));
#679=AXIS2_PLACEMENT_3D('',#680,#681,#682);
#680=CARTESIAN_POINT('',(25.,5.,-25.));
#681=DIRECTION('',(0.,-1.,-0.));
#682=DIRECTION('',(-1.,-0.,1.22464679914735E-016));
#683=CARTESIAN_POINT('',(7.,0.,-46.));
#684=CARTESIAN_POINT('',(7.,5.,-46.));
#685=VECTOR('',#686,1.);
#686=DIRECTION('',(0.,-1.,0.));
#687=AXIS2_PLACEMENT_3D('',#688,#689,#690);
#688=CARTESIAN_POINT('',(7.,0.,-41.));
#689=DIRECTION('',(0.,-1.,0.));
#690=DIRECTION('',(-1.,0.,-1.4210854715202E-015));
#691=CARTESIAN_POINT('',(43.,0.,-46.));
#692=CARTESIAN_POINT('',(43.,0.,-46.));
#693=VECTOR('',#694,1.);
#694=DIRECTION('',(-1.,0.,0.));
#695=CARTESIAN_POINT('',(48.,0.,-41.));
#696=AXIS2_PLACEMENT_3D('',#697,#698,#699);
#697=CARTESIAN_POINT('',(43.,0.,-41.));
#698=DIRECTION('',(0.,-1.,0.));
#699=DIRECTION('',(0.,0.,-1.));
#700=CARTESIAN_POINT('',(48.,0.,-9.));
#701=VECTOR('',#702,1.);
#702=DIRECTION('',(0.,0.,-1.));
#703=CARTESIAN_POINT('',(20.5,0.,-25.));
#704=AXIS2_PLACEMENT_3D('',#705,#706,#707);
#705=CARTESIAN_POINT('',(25.,0.,-25.));
#706=DIRECTION('',(0.,-1.,-0.));
#707=DIRECTION('',(-1.,-0.,1.22464679914735E-016));
#708=CARTESIAN_POINT('',(48.,0.,-41.));
#709=VECTOR('',#710,1.);
#710=DIRECTION('',(1.4210854715202E-015,1.,-1.4210854715202E-015));
#711=CARTESIAN_POINT('',(43.,5.,-46.));
#712=VECTOR('',#713,1.);
#713=DIRECTION('',(0.,-1.,0.));
ENDSEC;
END-ISO-10303-21;
